 0
SECTION
 2
ENTITIES
 0
POLYLINE
 8
TITLE
 66
1
 70
1
 10
0.0
 20
0.0
 30
0.0
 0
VERTEX
 8
TITLE
 10
 -0.1000
 20
  0.1000
 30
0.0
 0
VERTEX
 8
TITLE
 10
  9.6000
 20
  0.1000
 30
0.0
 0
VERTEX
 8
TITLE
 10
  9.6000
 20
  7.3000
 30
0.0
 0
VERTEX
 8
TITLE
 10
 -0.1000
 20
  7.3000
 30
0.0
 0
SEQEND
 8
TITLE
 0
POLYLINE
 8
TITLE
 66
1
 70
1
 10
0.0
 20
0.0
 30
0.0
 0
VERTEX
 8
TITLE
 10
  0.0000
 20
  0.2000
 30
0.0
 0
VERTEX
 8
TITLE
 10
  9.5000
 20
  0.2000
 30
0.0
 0
VERTEX
 8
TITLE
 10
  9.5000
 20
  7.2000
 30
0.0
 0
VERTEX
 8
TITLE
 10
  0.0000
 20
  7.2000
 30
0.0
 0
SEQEND
 8
TITLE
 0
POLYLINE
 8
TITLE
 66
1
 10
0.0
 20
0.0
 30
0.0
 0
VERTEX
 8
TITLE
 10
  2.0600
 20
  0.2000
 30
0.0
 0
VERTEX
 8
TITLE
 10
  2.0600
 20
  0.1000
 30
0.0
 0
SEQEND
 8
TITLE
 0
POLYLINE
 8
TITLE
 66
1
 10
0.0
 20
0.0
 30
0.0
 0
VERTEX
 8
TITLE
 10
  2.0600
 20
  7.2000
 30
0.0
 0
VERTEX
 8
TITLE
 10
  2.0600
 20
  7.3000
 30
0.0
 0
SEQEND
 8
TITLE
 0
POLYLINE
 8
TITLE
 66
1
 10
0.0
 20
0.0
 30
0.0
 0
VERTEX
 8
TITLE
 10
  3.9200
 20
  0.2000
 30
0.0
 0
VERTEX
 8
TITLE
 10
  3.9200
 20
  0.1000
 30
0.0
 0
SEQEND
 8
TITLE
 0
POLYLINE
 8
TITLE
 66
1
 10
0.0
 20
0.0
 30
0.0
 0
VERTEX
 8
TITLE
 10
  3.9200
 20
  7.2000
 30
0.0
 0
VERTEX
 8
TITLE
 10
  3.9200
 20
  7.3000
 30
0.0
 0
SEQEND
 8
TITLE
 0
POLYLINE
 8
TITLE
 66
1
 10
0.0
 20
0.0
 30
0.0
 0
VERTEX
 8
TITLE
 10
  5.7800
 20
  0.2000
 30
0.0
 0
VERTEX
 8
TITLE
 10
  5.7800
 20
  0.1000
 30
0.0
 0
SEQEND
 8
TITLE
 0
POLYLINE
 8
TITLE
 66
1
 10
0.0
 20
0.0
 30
0.0
 0
VERTEX
 8
TITLE
 10
  5.7800
 20
  7.2000
 30
0.0
 0
VERTEX
 8
TITLE
 10
  5.7800
 20
  7.3000
 30
0.0
 0
SEQEND
 8
TITLE
 0
POLYLINE
 8
TITLE
 66
1
 10
0.0
 20
0.0
 30
0.0
 0
VERTEX
 8
TITLE
 10
  7.6400
 20
  0.2000
 30
0.0
 0
VERTEX
 8
TITLE
 10
  7.6400
 20
  0.1000
 30
0.0
 0
SEQEND
 8
TITLE
 0
POLYLINE
 8
TITLE
 66
1
 10
0.0
 20
0.0
 30
0.0
 0
VERTEX
 8
TITLE
 10
  7.6400
 20
  7.2000
 30
0.0
 0
VERTEX
 8
TITLE
 10
  7.6400
 20
  7.3000
 30
0.0
 0
SEQEND
 8
TITLE
 0
TEXT
 8
TITLE
 10
  1.1300
 20
  0.1200
 30
0.0
 40
  0.0500
 1
A
 0
TEXT
 8
TITLE
 10
  1.1300
 20
  7.2200
 30
0.0
 40
  0.0500
 1
A
 0
TEXT
 8
TITLE
 10
  2.9900
 20
  0.1200
 30
0.0
 40
  0.0500
 1
B
 0
TEXT
 8
TITLE
 10
  2.9900
 20
  7.2200
 30
0.0
 40
  0.0500
 1
B
 0
TEXT
 8
TITLE
 10
  4.8500
 20
  0.1200
 30
0.0
 40
  0.0500
 1
C
 0
TEXT
 8
TITLE
 10
  4.8500
 20
  7.2200
 30
0.0
 40
  0.0500
 1
C
 0
TEXT
 8
TITLE
 10
  6.7100
 20
  0.1200
 30
0.0
 40
  0.0500
 1
D
 0
TEXT
 8
TITLE
 10
  6.7100
 20
  7.2200
 30
0.0
 40
  0.0500
 1
D
 0
TEXT
 8
TITLE
 10
  8.5700
 20
  0.1200
 30
0.0
 40
  0.0500
 1
E
 0
TEXT
 8
TITLE
 10
  8.5700
 20
  7.2200
 30
0.0
 40
  0.0500
 1
E
 0
POLYLINE
 8
TITLE
 66
1
 10
0.0
 20
0.0
 30
0.0
 0
VERTEX
 8
TITLE
 10
 -0.1000
 20
  5.3000
 30
0.0
 0
VERTEX
 8
TITLE
 10
  0.0000
 20
  5.3000
 30
0.0
 0
SEQEND
 8
TITLE
 0
POLYLINE
 8
TITLE
 66
1
 10
0.0
 20
0.0
 30
0.0
 0
VERTEX
 8
TITLE
 10
  9.5000
 20
  5.3000
 30
0.0
 0
VERTEX
 8
TITLE
 10
  9.6000
 20
  5.3000
 30
0.0
 0
SEQEND
 8
TITLE
 0
SOLID
 8
TITLE
 10
  0.0000
 20
  3.6000
 30
0.0
 11
 -0.0500
 21
  3.6200
 31
0.0
 12
 -0.0500
 22
  3.5800
 32
0.0
 13
 -0.0500
 23
  3.6000
 33
0.0
 0
SOLID
 8
TITLE
 10
  9.5000
 20
  3.6000
 30
0.0
 11
  9.5500
 21
  3.6200
 31
0.0
 12
  9.5500
 22
  3.5800
 32
0.0
 13
  9.5500
 23
  3.6000
 33
0.0
 0
POLYLINE
 8
TITLE
 66
1
 10
0.0
 20
0.0
 30
0.0
 0
VERTEX
 8
TITLE
 10
 -0.1000
 20
  3.6000
 30
0.0
 0
VERTEX
 8
TITLE
 10
  0.0000
 20
  3.6000
 30
0.0
 0
SEQEND
 8
TITLE
 0
POLYLINE
 8
TITLE
 66
1
 10
0.0
 20
0.0
 30
0.0
 0
VERTEX
 8
TITLE
 10
  9.5000
 20
  3.6000
 30
0.0
 0
VERTEX
 8
TITLE
 10
  9.6000
 20
  3.6000
 30
0.0
 0
SEQEND
 8
TITLE
 0
SOLID
 8
TITLE
 10
  0.0000
 20
  3.6000
 30
0.0
 11
 -0.0500
 21
  3.6200
 31
0.0
 12
 -0.0500
 22
  3.5800
 32
0.0
 13
 -0.0500
 23
  3.6000
 33
0.0
 0
SOLID
 8
TITLE
 10
  9.5000
 20
  3.6000
 30
0.0
 11
  9.5500
 21
  3.6200
 31
0.0
 12
  9.5500
 22
  3.5800
 32
0.0
 13
  9.5500
 23
  3.6000
 33
0.0
 0
POLYLINE
 8
TITLE
 66
1
 10
0.0
 20
0.0
 30
0.0
 0
VERTEX
 8
TITLE
 10
 -0.1000
 20
  1.9000
 30
0.0
 0
VERTEX
 8
TITLE
 10
  0.0000
 20
  1.9000
 30
0.0
 0
SEQEND
 8
TITLE
 0
POLYLINE
 8
TITLE
 66
1
 10
0.0
 20
0.0
 30
0.0
 0
VERTEX
 8
TITLE
 10
  9.5000
 20
  1.9000
 30
0.0
 0
VERTEX
 8
TITLE
 10
  9.6000
 20
  1.9000
 30
0.0
 0
SEQEND
 8
TITLE
 0
SOLID
 8
TITLE
 10
  0.0000
 20
  3.6000
 30
0.0
 11
 -0.0500
 21
  3.6200
 31
0.0
 12
 -0.0500
 22
  3.5800
 32
0.0
 13
 -0.0500
 23
  3.6000
 33
0.0
 0
SOLID
 8
TITLE
 10
  9.5000
 20
  3.6000
 30
0.0
 11
  9.5500
 21
  3.6200
 31
0.0
 12
  9.5500
 22
  3.5800
 32
0.0
 13
  9.5500
 23
  3.6000
 33
0.0
 0
TEXT
 8
TITLE
 10
 -0.1200
 20
  6.1500
 30
0.0
 40
  0.0500
 1
4
 0
TEXT
 8
TITLE
 10
  9.5200
 20
  6.1500
 30
0.0
 40
  0.0500
 1
4
 0
TEXT
 8
TITLE
 10
 -0.1200
 20
  4.4500
 30
0.0
 40
  0.0500
 1
3
 0
TEXT
 8
TITLE
 10
  9.5200
 20
  4.4500
 30
0.0
 40
  0.0500
 1
3
 0
TEXT
 8
TITLE
 10
 -0.1200
 20
  2.7500
 30
0.0
 40
  0.0500
 1
2
 0
TEXT
 8
TITLE
 10
  9.5200
 20
  2.7500
 30
0.0
 40
  0.0500
 1
2
 0
TEXT
 8
TITLE
 10
 -0.1200
 20
  1.0500
 30
0.0
 40
  0.0500
 1
1
 0
TEXT
 8
TITLE
 10
  9.5200
 20
  1.0500
 30
0.0
 40
  0.0500
 1
1
 0
TEXT
 8
TITLE
 10
  6.3000
 20
  0.4486
 30
0.0
 40
  0.0514
 1
C2K0001
 0
TEXT
 8
TITLE
 10
  9.3000
 20
  0.4486
 30
0.0
 40
  0.0514
 1
A
 0
TEXT
 8
TITLE
 10
  6.3000
 20
  0.7486
 30
0.0
 40
  0.0514
 1
Modified Vectrex Lightpen (MVLP) v1.0
 0
TEXT
 8
TITLE
 10
  6.0000
 20
  0.4486
 30
0.0
 40
  0.0514
 1
A
 0
TEXT
 8
TITLE
 10
  8.4000
 20
  0.2486
 30
0.0
 40
  0.0514
 1
1
 0
TEXT
 8
TITLE
 10
  9.0000
 20
  0.2486
 30
0.0
 40
  0.0514
 1
1
 0
TEXT
 8
TITLE
 10
  6.4000
 20
  0.2486
 30
0.0
 40
  0.0514
 1
Wednesday, March 15, 2000
 0
TEXT
 8
PARTTEXT
 10
  5.9000
 20
  0.8486
 30
0.0
 40
  0.0514
 1
Title
 0
TEXT
 8
PARTTEXT
 10
  5.9000
 20
  0.5486
 30
0.0
 40
  0.0514
 1
Size
 0
TEXT
 8
PARTTEXT
 10
  6.3000
 20
  0.5486
 30
0.0
 40
  0.0514
 1
Document Number
 0
TEXT
 8
PARTTEXT
 10
  9.2000
 20
  0.5486
 30
0.0
 40
  0.0514
 1
Rev
 0
TEXT
 8
PARTTEXT
 10
  5.9000
 20
  0.2486
 30
0.0
 40
  0.0514
 1
Date:
 0
TEXT
 8
PARTTEXT
 10
  7.9000
 20
  0.2486
 30
0.0
 40
  0.0514
 1
Sheet
 0
POLYLINE
 8
TITLE
 66
1
 70
1
 10
0.0
 20
0.0
 30
0.0
 0
VERTEX
 8
TITLE
 10
  5.9000
 20
  1.1000
 30
0.0
 0
VERTEX
 8
TITLE
 10
  9.5000
 20
  1.1000
 30
0.0
 0
VERTEX
 8
TITLE
 10
  9.5000
 20
  0.9000
 30
0.0
 0
VERTEX
 8
TITLE
 10
  5.9000
 20
  0.9000
 30
0.0
 0
SEQEND
 8
TITLE
 0
POLYLINE
 8
TITLE
 66
1
 70
1
 10
0.0
 20
0.0
 30
0.0
 0
VERTEX
 8
TITLE
 10
  5.9000
 20
  0.9000
 30
0.0
 0
VERTEX
 8
TITLE
 10
  9.5000
 20
  0.9000
 30
0.0
 0
VERTEX
 8
TITLE
 10
  9.5000
 20
  0.6000
 30
0.0
 0
VERTEX
 8
TITLE
 10
  5.9000
 20
  0.6000
 30
0.0
 0
SEQEND
 8
TITLE
 0
POLYLINE
 8
TITLE
 66
1
 70
1
 10
0.0
 20
0.0
 30
0.0
 0
VERTEX
 8
TITLE
 10
  5.9000
 20
  0.6000
 30
0.0
 0
VERTEX
 8
TITLE
 10
  6.2000
 20
  0.6000
 30
0.0
 0
VERTEX
 8
TITLE
 10
  6.2000
 20
  0.3000
 30
0.0
 0
VERTEX
 8
TITLE
 10
  5.9000
 20
  0.3000
 30
0.0
 0
SEQEND
 8
TITLE
 0
POLYLINE
 8
TITLE
 66
1
 70
1
 10
0.0
 20
0.0
 30
0.0
 0
VERTEX
 8
TITLE
 10
  6.2000
 20
  0.6000
 30
0.0
 0
VERTEX
 8
TITLE
 10
  9.2000
 20
  0.6000
 30
0.0
 0
VERTEX
 8
TITLE
 10
  9.2000
 20
  0.3000
 30
0.0
 0
VERTEX
 8
TITLE
 10
  6.2000
 20
  0.3000
 30
0.0
 0
SEQEND
 8
TITLE
 0
POLYLINE
 8
TITLE
 66
1
 70
1
 10
0.0
 20
0.0
 30
0.0
 0
VERTEX
 8
TITLE
 10
  9.2000
 20
  0.6000
 30
0.0
 0
VERTEX
 8
TITLE
 10
  9.5000
 20
  0.6000
 30
0.0
 0
VERTEX
 8
TITLE
 10
  9.5000
 20
  0.3000
 30
0.0
 0
VERTEX
 8
TITLE
 10
  9.2000
 20
  0.3000
 30
0.0
 0
SEQEND
 8
TITLE
 0
POLYLINE
 8
TITLE
 66
1
 70
1
 10
0.0
 20
0.0
 30
0.0
 0
VERTEX
 8
TITLE
 10
  5.9000
 20
  0.3000
 30
0.0
 0
VERTEX
 8
TITLE
 10
  7.9000
 20
  0.3000
 30
0.0
 0
VERTEX
 8
TITLE
 10
  7.9000
 20
  0.2000
 30
0.0
 0
VERTEX
 8
TITLE
 10
  5.9000
 20
  0.2000
 30
0.0
 0
SEQEND
 8
TITLE
 0
POLYLINE
 8
TITLE
 66
1
 70
1
 10
0.0
 20
0.0
 30
0.0
 0
VERTEX
 8
TITLE
 10
  7.9000
 20
  0.3000
 30
0.0
 0
VERTEX
 8
TITLE
 10
  9.5000
 20
  0.3000
 30
0.0
 0
VERTEX
 8
TITLE
 10
  9.5000
 20
  0.2000
 30
0.0
 0
VERTEX
 8
TITLE
 10
  7.9000
 20
  0.2000
 30
0.0
 0
SEQEND
 8
TITLE
 0
TEXT
 8
PARTTEXT
 10
  8.7000
 20
  0.2486
 30
0.0
 40
  0.0514
 1
of
 0
TEXT
 8
PARTTEXT
 10
  2.9000
 20
  5.7486
 30
0.0
 40
  0.0514
 1
R1
 0
TEXT
 8
PARTTEXT
 10
  2.9000
 20
  5.6486
 30
0.0
 40
  0.0514
 1
10K
 0
LINE
 8
PARTS
 10
  2.8000
 20
  5.9000
 30
0.0
 11
  2.8000
 21
  5.8000
 31
0.0
 0
TEXT
 8
PARTS
 10
  2.8300
 20
  5.8600
 30
0.0
 40
  0.0500
 50
270.0000
 1

 0
LINE
 8
PARTS
 10
  2.8000
 20
  5.4000
 30
0.0
 11
  2.8000
 21
  5.5000
 31
0.0
 0
TEXT
 8
PARTS
 10
  2.8300
 20
  5.3800
 30
0.0
 40
  0.0500
 50
270.0000
 1

 0
POLYLINE
 8
PARTS
 66
1
 10
0.0
 20
0.0
 30
0.0
 0
VERTEX
 8
PARTS
 10
  2.8000
 20
  5.8000
 30
0.0
 0
VERTEX
 8
PARTS
 10
  2.8300
 20
  5.7700
 30
0.0
 0
SEQEND
 8
PARTS
 0
POLYLINE
 8
PARTS
 66
1
 10
0.0
 20
0.0
 30
0.0
 0
VERTEX
 8
PARTS
 10
  2.8300
 20
  5.7700
 30
0.0
 0
VERTEX
 8
PARTS
 10
  2.7700
 20
  5.7100
 30
0.0
 0
SEQEND
 8
PARTS
 0
POLYLINE
 8
PARTS
 66
1
 10
0.0
 20
0.0
 30
0.0
 0
VERTEX
 8
PARTS
 10
  2.7700
 20
  5.7100
 30
0.0
 0
VERTEX
 8
PARTS
 10
  2.8300
 20
  5.6500
 30
0.0
 0
SEQEND
 8
PARTS
 0
POLYLINE
 8
PARTS
 66
1
 10
0.0
 20
0.0
 30
0.0
 0
VERTEX
 8
PARTS
 10
  2.8300
 20
  5.6500
 30
0.0
 0
VERTEX
 8
PARTS
 10
  2.7700
 20
  5.5900
 30
0.0
 0
SEQEND
 8
PARTS
 0
POLYLINE
 8
PARTS
 66
1
 10
0.0
 20
0.0
 30
0.0
 0
VERTEX
 8
PARTS
 10
  2.7700
 20
  5.5900
 30
0.0
 0
VERTEX
 8
PARTS
 10
  2.8300
 20
  5.5300
 30
0.0
 0
SEQEND
 8
PARTS
 0
POLYLINE
 8
PARTS
 66
1
 10
0.0
 20
0.0
 30
0.0
 0
VERTEX
 8
PARTS
 10
  2.8300
 20
  5.5300
 30
0.0
 0
VERTEX
 8
PARTS
 10
  2.8000
 20
  5.5000
 30
0.0
 0
SEQEND
 8
PARTS
 0
TEXT
 8
PARTTEXT
 10
  4.3000
 20
  5.9486
 30
0.0
 40
  0.0514
 1
R3
 0
TEXT
 8
PARTTEXT
 10
  4.3000
 20
  5.8486
 30
0.0
 40
  0.0514
 1
2.2K
 0
LINE
 8
PARTS
 10
  4.2000
 20
  6.1000
 30
0.0
 11
  4.2000
 21
  6.0000
 31
0.0
 0
TEXT
 8
PARTS
 10
  4.2300
 20
  6.0600
 30
0.0
 40
  0.0500
 50
270.0000
 1

 0
LINE
 8
PARTS
 10
  4.2000
 20
  5.6000
 30
0.0
 11
  4.2000
 21
  5.7000
 31
0.0
 0
TEXT
 8
PARTS
 10
  4.2300
 20
  5.5800
 30
0.0
 40
  0.0500
 50
270.0000
 1

 0
POLYLINE
 8
PARTS
 66
1
 10
0.0
 20
0.0
 30
0.0
 0
VERTEX
 8
PARTS
 10
  4.2000
 20
  6.0000
 30
0.0
 0
VERTEX
 8
PARTS
 10
  4.2300
 20
  5.9700
 30
0.0
 0
SEQEND
 8
PARTS
 0
POLYLINE
 8
PARTS
 66
1
 10
0.0
 20
0.0
 30
0.0
 0
VERTEX
 8
PARTS
 10
  4.2300
 20
  5.9700
 30
0.0
 0
VERTEX
 8
PARTS
 10
  4.1700
 20
  5.9100
 30
0.0
 0
SEQEND
 8
PARTS
 0
POLYLINE
 8
PARTS
 66
1
 10
0.0
 20
0.0
 30
0.0
 0
VERTEX
 8
PARTS
 10
  4.1700
 20
  5.9100
 30
0.0
 0
VERTEX
 8
PARTS
 10
  4.2300
 20
  5.8500
 30
0.0
 0
SEQEND
 8
PARTS
 0
POLYLINE
 8
PARTS
 66
1
 10
0.0
 20
0.0
 30
0.0
 0
VERTEX
 8
PARTS
 10
  4.2300
 20
  5.8500
 30
0.0
 0
VERTEX
 8
PARTS
 10
  4.1700
 20
  5.7900
 30
0.0
 0
SEQEND
 8
PARTS
 0
POLYLINE
 8
PARTS
 66
1
 10
0.0
 20
0.0
 30
0.0
 0
VERTEX
 8
PARTS
 10
  4.1700
 20
  5.7900
 30
0.0
 0
VERTEX
 8
PARTS
 10
  4.2300
 20
  5.7300
 30
0.0
 0
SEQEND
 8
PARTS
 0
POLYLINE
 8
PARTS
 66
1
 10
0.0
 20
0.0
 30
0.0
 0
VERTEX
 8
PARTS
 10
  4.2300
 20
  5.7300
 30
0.0
 0
VERTEX
 8
PARTS
 10
  4.2000
 20
  5.7000
 30
0.0
 0
SEQEND
 8
PARTS
 0
TEXT
 8
PARTTEXT
 10
  3.2000
 20
  4.7486
 30
0.0
 40
  0.0514
 1
C1
 0
TEXT
 8
PARTTEXT
 10
  3.2000
 20
  4.6486
 30
0.0
 40
  0.0514
 1
0.01uF
 0
LINE
 8
PARTS
 10
  3.1000
 20
  4.9000
 30
0.0
 11
  3.2000
 21
  4.9000
 31
0.0
 0
TEXT
 8
PARTS
 10
  3.1400
 20
  4.9300
 30
0.0
 40
  0.0500
 1

 0
LINE
 8
PARTS
 10
  3.4000
 20
  4.9000
 30
0.0
 11
  3.3000
 21
  4.9000
 31
0.0
 0
TEXT
 8
PARTS
 10
  3.3600
 20
  4.9300
 30
0.0
 40
  0.0500
 1

 0
POLYLINE
 8
PARTS
 66
1
 10
0.0
 20
0.0
 30
0.0
 0
VERTEX
 8
PARTS
 10
  3.2000
 20
  4.9000
 30
0.0
 0
VERTEX
 8
PARTS
 10
  3.2200
 20
  4.9000
 30
0.0
 0
SEQEND
 8
PARTS
 0
POLYLINE
 8
PARTS
 66
1
 10
0.0
 20
0.0
 30
0.0
 0
VERTEX
 8
PARTS
 10
  3.2700
 20
  4.8100
 30
0.0
 0
VERTEX
 8
PARTS
 10
  3.2700
 20
  4.9900
 30
0.0
 0
SEQEND
 8
PARTS
 0
POLYLINE
 8
PARTS
 66
1
 10
0.0
 20
0.0
 30
0.0
 0
VERTEX
 8
PARTS
 10
  3.2200
 20
  4.8100
 30
0.0
 0
VERTEX
 8
PARTS
 10
  3.2200
 20
  4.9900
 30
0.0
 0
SEQEND
 8
PARTS
 0
POLYLINE
 8
PARTS
 66
1
 10
0.0
 20
0.0
 30
0.0
 0
VERTEX
 8
PARTS
 10
  3.3000
 20
  4.9000
 30
0.0
 0
VERTEX
 8
PARTS
 10
  3.2700
 20
  4.9000
 30
0.0
 0
SEQEND
 8
PARTS
 0
TEXT
 8
PARTTEXT
 10
  5.9000
 20
  5.6486
 30
0.0
 40
  0.0514
 1
C4
 0
TEXT
 8
PARTTEXT
 10
  5.9000
 20
  5.5486
 30
0.0
 40
  0.0514
 1
47uF 10v
 0
LINE
 8
PARTS
 10
  5.7000
 20
  5.8000
 30
0.0
 11
  5.7000
 21
  5.7000
 31
0.0
 0
TEXT
 8
PARTS
 10
  5.7300
 20
  5.7600
 30
0.0
 40
  0.0500
 50
270.0000
 1

 0
LINE
 8
PARTS
 10
  5.7000
 20
  5.5000
 30
0.0
 11
  5.7000
 21
  5.6000
 31
0.0
 0
TEXT
 8
PARTS
 10
  5.7300
 20
  5.4800
 30
0.0
 40
  0.0500
 50
270.0000
 1

 0
POLYLINE
 8
PARTS
 66
1
 10
0.0
 20
0.0
 30
0.0
 0
VERTEX
 8
PARTS
 10
  5.6000
 20
  5.7000
 30
0.0
 0
VERTEX
 8
PARTS
 10
  5.8000
 20
  5.7000
 30
0.0
 0
SEQEND
 8
PARTS
 0
POLYLINE
 8
PARTS
 66
1
 10
0.0
 20
0.0
 30
0.0
 0
VERTEX
 8
PARTS
 10
  5.7000
 20
  5.6600
 30
0.0
 0
VERTEX
 8
PARTS
 10
  5.7000
 20
  5.6000
 30
0.0
 0
SEQEND
 8
PARTS
 0
POLYLINE
 8
PARTS
 66
1
 10
0.0
 20
0.0
 30
0.0
 0
VERTEX
 8
PARTS
 10
  5.8000
 20
  5.6300
 30
0.0
 42
  0.1654
 0
VERTEX
 8
PARTS
 10
  5.7000
 20
  5.6600
 30
0.0
 0
SEQEND
 8
PARTS
 0
POLYLINE
 8
PARTS
 66
1
 10
0.0
 20
0.0
 30
0.0
 0
VERTEX
 8
PARTS
 10
  5.7000
 20
  5.6600
 30
0.0
 42
  0.1654
 0
VERTEX
 8
PARTS
 10
  5.6000
 20
  5.6300
 30
0.0
 0
SEQEND
 8
PARTS
 0
TEXT
 8
PARTTEXT
 10
  4.3000
 20
  4.9486
 30
0.0
 40
  0.0514
 1
Q2
 0
TEXT
 8
PARTTEXT
 10
  4.2900
 20
  4.8586
 30
0.0
 40
  0.0514
 1
2N3904
 0
LINE
 8
PARTS
 10
  3.9000
 20
  4.9000
 30
0.0
 11
  4.0000
 21
  4.9000
 31
0.0
 0
TEXT
 8
PARTS
 10
  3.9400
 20
  4.9300
 30
0.0
 40
  0.0500
 1

 0
LINE
 8
PARTS
 10
  4.2000
 20
  4.7000
 30
0.0
 11
  4.2000
 21
  4.8000
 31
0.0
 0
TEXT
 8
PARTS
 10
  4.2300
 20
  4.6800
 30
0.0
 40
  0.0500
 50
270.0000
 1

 0
LINE
 8
PARTS
 10
  4.2000
 20
  5.1000
 30
0.0
 11
  4.2000
 21
  5.0000
 31
0.0
 0
TEXT
 8
PARTS
 10
  4.2300
 20
  5.0600
 30
0.0
 40
  0.0500
 50
270.0000
 1

 0
POLYLINE
 8
PARTS
 66
1
 10
0.0
 20
0.0
 30
0.0
 0
VERTEX
 8
PARTS
 10
  4.2000
 20
  5.0000
 30
0.0
 0
VERTEX
 8
PARTS
 10
  4.1000
 20
  4.9300
 30
0.0
 0
SEQEND
 8
PARTS
 0
POLYLINE
 8
PARTS
 66
1
 10
0.0
 20
0.0
 30
0.0
 0
VERTEX
 8
PARTS
 10
  4.1000
 20
  4.8700
 30
0.0
 0
VERTEX
 8
PARTS
 10
  4.2000
 20
  4.8000
 30
0.0
 0
SEQEND
 8
PARTS
 0
POLYLINE
 8
PARTS
 66
1
 10
0.0
 20
0.0
 30
0.0
 0
VERTEX
 8
PARTS
 10
  4.1000
 20
  5.0000
 30
0.0
 0
VERTEX
 8
PARTS
 10
  4.1000
 20
  4.8000
 30
0.0
 0
SEQEND
 8
PARTS
 0
POLYLINE
 8
PARTS
 66
1
 10
0.0
 20
0.0
 30
0.0
 0
VERTEX
 8
PARTS
 10
  4.1000
 20
  4.9000
 30
0.0
 0
VERTEX
 8
PARTS
 10
  4.0000
 20
  4.9000
 30
0.0
 0
SEQEND
 8
PARTS
 0
POLYLINE
 8
PARTS
 66
1
 70
1
 10
0.0
 20
0.0
 30
0.0
 0
VERTEX
 8
PARTS
 10
  4.2000
 20
  4.8000
 30
0.0
 0
VERTEX
 8
PARTS
 10
  4.1600
 20
  4.8500
 30
0.0
 0
VERTEX
 8
PARTS
 10
  4.1400
 20
  4.8200
 30
0.0
 0
VERTEX
 8
PARTS
 10
  4.2000
 20
  4.8000
 30
0.0
 0
SEQEND
 8
PARTS
 0
TEXT
 8
PARTTEXT
 10
  3.7000
 20
  5.3486
 30
0.0
 40
  0.0514
 1
R2
 0
TEXT
 8
PARTTEXT
 10
  3.7000
 20
  5.2486
 30
0.0
 40
  0.0514
 1
10K
 0
LINE
 8
PARTS
 10
  3.6000
 20
  5.5000
 30
0.0
 11
  3.6000
 21
  5.4000
 31
0.0
 0
TEXT
 8
PARTS
 10
  3.6300
 20
  5.4600
 30
0.0
 40
  0.0500
 50
270.0000
 1

 0
LINE
 8
PARTS
 10
  3.6000
 20
  5.0000
 30
0.0
 11
  3.6000
 21
  5.1000
 31
0.0
 0
TEXT
 8
PARTS
 10
  3.6300
 20
  4.9800
 30
0.0
 40
  0.0500
 50
270.0000
 1

 0
POLYLINE
 8
PARTS
 66
1
 10
0.0
 20
0.0
 30
0.0
 0
VERTEX
 8
PARTS
 10
  3.6000
 20
  5.4000
 30
0.0
 0
VERTEX
 8
PARTS
 10
  3.6300
 20
  5.3700
 30
0.0
 0
SEQEND
 8
PARTS
 0
POLYLINE
 8
PARTS
 66
1
 10
0.0
 20
0.0
 30
0.0
 0
VERTEX
 8
PARTS
 10
  3.6300
 20
  5.3700
 30
0.0
 0
VERTEX
 8
PARTS
 10
  3.5700
 20
  5.3100
 30
0.0
 0
SEQEND
 8
PARTS
 0
POLYLINE
 8
PARTS
 66
1
 10
0.0
 20
0.0
 30
0.0
 0
VERTEX
 8
PARTS
 10
  3.5700
 20
  5.3100
 30
0.0
 0
VERTEX
 8
PARTS
 10
  3.6300
 20
  5.2500
 30
0.0
 0
SEQEND
 8
PARTS
 0
POLYLINE
 8
PARTS
 66
1
 10
0.0
 20
0.0
 30
0.0
 0
VERTEX
 8
PARTS
 10
  3.6300
 20
  5.2500
 30
0.0
 0
VERTEX
 8
PARTS
 10
  3.5700
 20
  5.1900
 30
0.0
 0
SEQEND
 8
PARTS
 0
POLYLINE
 8
PARTS
 66
1
 10
0.0
 20
0.0
 30
0.0
 0
VERTEX
 8
PARTS
 10
  3.5700
 20
  5.1900
 30
0.0
 0
VERTEX
 8
PARTS
 10
  3.6300
 20
  5.1300
 30
0.0
 0
SEQEND
 8
PARTS
 0
POLYLINE
 8
PARTS
 66
1
 10
0.0
 20
0.0
 30
0.0
 0
VERTEX
 8
PARTS
 10
  3.6300
 20
  5.1300
 30
0.0
 0
VERTEX
 8
PARTS
 10
  3.6000
 20
  5.1000
 30
0.0
 0
SEQEND
 8
PARTS
 0
TEXT
 8
PARTTEXT
 10
  4.7000
 20
  5.5486
 30
0.0
 40
  0.0514
 1
U1
 0
TEXT
 8
PARTTEXT
 10
  4.7000
 20
  5.4486
 30
0.0
 40
  0.0514
 1
74LS132
 0
LINE
 8
PARTS
 10
  4.7000
 20
  5.3000
 30
0.0
 11
  4.8000
 21
  5.3000
 31
0.0
 0
TEXT
 8
PARTS
 10
  4.7000
 20
  5.3300
 30
0.0
 40
  0.0500
 1
1
 0
LINE
 8
PARTS
 10
  4.7000
 20
  5.1000
 30
0.0
 11
  4.8000
 21
  5.1000
 31
0.0
 0
TEXT
 8
PARTS
 10
  4.7000
 20
  5.1300
 30
0.0
 40
  0.0500
 1
2
 0
LINE
 8
PARTS
 10
  5.5000
 20
  5.2000
 30
0.0
 11
  5.4000
 21
  5.2000
 31
0.0
 0
TEXT
 8
PARTS
 10
  5.4600
 20
  5.2300
 30
0.0
 40
  0.0500
 1
3
 0
LINE
 8
PARTS
 10
  5.1000
 20
  5.8000
 30
0.0
 11
  5.1000
 21
  5.5000
 31
0.0
 0
TEXT
 8
PARTS
 10
  5.1300
 20
  5.6400
 30
0.0
 40
  0.0500
 50
270.0000
 1
14
 0
LINE
 8
PARTS
 10
  5.1000
 20
  4.6000
 30
0.0
 11
  5.1000
 21
  4.9000
 31
0.0
 0
TEXT
 8
PARTS
 10
  5.1300
 20
  4.7800
 30
0.0
 40
  0.0500
 50
270.0000
 1
7
 0
POLYLINE
 8
PARTS
 66
1
 70
1
 10
0.0
 20
0.0
 30
0.0
 0
VERTEX
 8
PARTS
 10
  5.4000
 20
  5.2000
 30
0.0
 42
  0.0985
 0
VERTEX
 8
PARTS
 10
  5.3962
 20
  5.2191
 30
0.0
 42
  0.0985
 0
VERTEX
 8
PARTS
 10
  5.3854
 20
  5.2354
 30
0.0
 42
  0.0985
 0
VERTEX
 8
PARTS
 10
  5.3691
 20
  5.2462
 30
0.0
 42
  0.0985
 0
VERTEX
 8
PARTS
 10
  5.3500
 20
  5.2500
 30
0.0
 42
  0.0985
 0
VERTEX
 8
PARTS
 10
  5.3309
 20
  5.2462
 30
0.0
 42
  0.0985
 0
VERTEX
 8
PARTS
 10
  5.3146
 20
  5.2354
 30
0.0
 42
  0.0985
 0
VERTEX
 8
PARTS
 10
  5.3038
 20
  5.2191
 30
0.0
 42
  0.0985
 0
VERTEX
 8
PARTS
 10
  5.3000
 20
  5.2000
 30
0.0
 42
  0.0985
 0
VERTEX
 8
PARTS
 10
  5.3038
 20
  5.1809
 30
0.0
 42
  0.0985
 0
VERTEX
 8
PARTS
 10
  5.3146
 20
  5.1646
 30
0.0
 42
  0.0985
 0
VERTEX
 8
PARTS
 10
  5.3309
 20
  5.1538
 30
0.0
 42
  0.0985
 0
VERTEX
 8
PARTS
 10
  5.3500
 20
  5.1500
 30
0.0
 42
  0.0985
 0
VERTEX
 8
PARTS
 10
  5.3691
 20
  5.1538
 30
0.0
 42
  0.0985
 0
VERTEX
 8
PARTS
 10
  5.3854
 20
  5.1646
 30
0.0
 42
  0.0985
 0
VERTEX
 8
PARTS
 10
  5.3962
 20
  5.1809
 30
0.0
 42
  0.0985
 0
SEQEND
 8
PARTS
 0
POLYLINE
 8
PARTS
 66
1
 10
0.0
 20
0.0
 30
0.0
 0
VERTEX
 8
PARTS
 10
  5.4000
 20
  5.2000
 30
0.0
 0
VERTEX
 8
PARTS
 10
  5.4000
 20
  5.2000
 30
0.0
 0
SEQEND
 8
PARTS
 0
POLYLINE
 8
PARTS
 66
1
 10
0.0
 20
0.0
 30
0.0
 0
VERTEX
 8
PARTS
 10
  4.8000
 20
  5.1000
 30
0.0
 0
VERTEX
 8
PARTS
 10
  4.9000
 20
  5.1000
 30
0.0
 0
SEQEND
 8
PARTS
 0
POLYLINE
 8
PARTS
 66
1
 10
0.0
 20
0.0
 30
0.0
 0
VERTEX
 8
PARTS
 10
  4.8000
 20
  5.3000
 30
0.0
 0
VERTEX
 8
PARTS
 10
  4.9000
 20
  5.3000
 30
0.0
 0
SEQEND
 8
PARTS
 0
POLYLINE
 8
PARTS
 66
1
 10
0.0
 20
0.0
 30
0.0
 0
VERTEX
 8
PARTS
 10
  5.1500
 20
  5.0500
 30
0.0
 42
  0.4142
 0
VERTEX
 8
PARTS
 10
  5.3000
 20
  5.2000
 30
0.0
 0
SEQEND
 8
PARTS
 0
POLYLINE
 8
PARTS
 66
1
 10
0.0
 20
0.0
 30
0.0
 0
VERTEX
 8
PARTS
 10
  5.3000
 20
  5.2000
 30
0.0
 42
  0.4142
 0
VERTEX
 8
PARTS
 10
  5.1500
 20
  5.3500
 30
0.0
 0
SEQEND
 8
PARTS
 0
POLYLINE
 8
PARTS
 66
1
 10
0.0
 20
0.0
 30
0.0
 0
VERTEX
 8
PARTS
 10
  4.9000
 20
  5.0500
 30
0.0
 0
VERTEX
 8
PARTS
 10
  4.9000
 20
  5.3500
 30
0.0
 0
SEQEND
 8
PARTS
 0
POLYLINE
 8
PARTS
 66
1
 10
0.0
 20
0.0
 30
0.0
 0
VERTEX
 8
PARTS
 10
  5.1500
 20
  5.0500
 30
0.0
 0
VERTEX
 8
PARTS
 10
  4.9000
 20
  5.0500
 30
0.0
 0
SEQEND
 8
PARTS
 0
POLYLINE
 8
PARTS
 66
1
 10
0.0
 20
0.0
 30
0.0
 0
VERTEX
 8
PARTS
 10
  4.9000
 20
  5.3500
 30
0.0
 0
VERTEX
 8
PARTS
 10
  5.1500
 20
  5.3500
 30
0.0
 0
SEQEND
 8
PARTS
 0
POLYLINE
 8
PARTS
 66
1
 10
0.0
 20
0.0
 30
0.0
 0
VERTEX
 8
PARTS
 10
  5.1000
 20
  5.0500
 30
0.0
 0
VERTEX
 8
PARTS
 10
  5.1000
 20
  4.9000
 30
0.0
 0
SEQEND
 8
PARTS
 0
POLYLINE
 8
PARTS
 66
1
 10
0.0
 20
0.0
 30
0.0
 0
VERTEX
 8
PARTS
 10
  5.1000
 20
  5.5000
 30
0.0
 0
VERTEX
 8
PARTS
 10
  5.1000
 20
  5.3500
 30
0.0
 0
SEQEND
 8
PARTS
 0
TEXT
 8
PARTTEXT
 10
  2.2000
 20
  4.5486
 30
0.0
 40
  0.0514
 1
Q1
 0
TEXT
 8
PARTTEXT
 10
  2.2000
 20
  4.4486
 30
0.0
 40
  0.0514
 1
L14G3
 0
LINE
 8
PARTS
 10
  2.8000
 20
  4.3000
 30
0.0
 11
  2.8000
 21
  4.4000
 31
0.0
 0
TEXT
 8
PARTS
 10
  2.8300
 20
  4.2800
 30
0.0
 40
  0.0500
 50
270.0000
 1
1
 0
LINE
 8
PARTS
 10
  2.8000
 20
  4.7000
 30
0.0
 11
  2.8000
 21
  4.6000
 31
0.0
 0
TEXT
 8
PARTS
 10
  2.8300
 20
  4.7000
 30
0.0
 40
  0.0500
 50
270.0000
 1
3
 0
LINE
 8
PARTS
 10
  2.9000
 20
  4.5000
 30
0.0
 11
  2.8000
 21
  4.5000
 31
0.0
 0
TEXT
 8
PARTS
 10
  2.8600
 20
  4.5300
 30
0.0
 40
  0.0500
 1
2
 0
LINE
 8
PARTS
 10
  2.8600
 20
  4.5400
 30
0.0
 11
  2.9400
 21
  4.4600
 31
0.0
 0
LINE
 8
PARTS
 10
  2.9400
 20
  4.5400
 30
0.0
 11
  2.8600
 21
  4.4600
 31
0.0
 0
POLYLINE
 8
PARTS
 66
1
 70
1
 10
0.0
 20
0.0
 30
0.0
 0
VERTEX
 8
PARTS
 10
  2.6700
 20
  4.4200
 30
0.0
 0
VERTEX
 8
PARTS
 10
  2.6600
 20
  4.4700
 30
0.0
 0
VERTEX
 8
PARTS
 10
  2.6200
 20
  4.4300
 30
0.0
 0
VERTEX
 8
PARTS
 10
  2.6700
 20
  4.4200
 30
0.0
 0
SEQEND
 8
PARTS
 0
POLYLINE
 8
PARTS
 66
1
 70
1
 10
0.0
 20
0.0
 30
0.0
 0
VERTEX
 8
PARTS
 10
  2.8000
 20
  4.4000
 30
0.0
 0
VERTEX
 8
PARTS
 10
  2.7500
 20
  4.4600
 30
0.0
 0
VERTEX
 8
PARTS
 10
  2.7300
 20
  4.4300
 30
0.0
 0
VERTEX
 8
PARTS
 10
  2.8000
 20
  4.4000
 30
0.0
 0
SEQEND
 8
PARTS
 0
POLYLINE
 8
PARTS
 66
1
 10
0.0
 20
0.0
 30
0.0
 0
VERTEX
 8
PARTS
 10
  2.8000
 20
  4.6000
 30
0.0
 0
VERTEX
 8
PARTS
 10
  2.7000
 20
  4.5300
 30
0.0
 0
SEQEND
 8
PARTS
 0
POLYLINE
 8
PARTS
 66
1
 10
0.0
 20
0.0
 30
0.0
 0
VERTEX
 8
PARTS
 10
  2.7000
 20
  4.4700
 30
0.0
 0
VERTEX
 8
PARTS
 10
  2.8000
 20
  4.4000
 30
0.0
 0
SEQEND
 8
PARTS
 0
POLYLINE
 8
PARTS
 66
1
 10
0.0
 20
0.0
 30
0.0
 0
VERTEX
 8
PARTS
 10
  2.7000
 20
  4.4000
 30
0.0
 0
VERTEX
 8
PARTS
 10
  2.7000
 20
  4.6000
 30
0.0
 0
SEQEND
 8
PARTS
 0
POLYLINE
 8
PARTS
 66
1
 10
0.0
 20
0.0
 30
0.0
 0
VERTEX
 8
PARTS
 10
  2.6400
 20
  4.5500
 30
0.0
 0
VERTEX
 8
PARTS
 10
  2.6000
 20
  4.5900
 30
0.0
 0
SEQEND
 8
PARTS
 0
POLYLINE
 8
PARTS
 66
1
 10
0.0
 20
0.0
 30
0.0
 0
VERTEX
 8
PARTS
 10
  2.6000
 20
  4.5900
 30
0.0
 0
VERTEX
 8
PARTS
 10
  2.6000
 20
  4.5600
 30
0.0
 0
SEQEND
 8
PARTS
 0
POLYLINE
 8
PARTS
 66
1
 10
0.0
 20
0.0
 30
0.0
 0
VERTEX
 8
PARTS
 10
  2.6000
 20
  4.5600
 30
0.0
 0
VERTEX
 8
PARTS
 10
  2.5600
 20
  4.6000
 30
0.0
 0
SEQEND
 8
PARTS
 0
POLYLINE
 8
PARTS
 66
1
 10
0.0
 20
0.0
 30
0.0
 0
VERTEX
 8
PARTS
 10
  2.6400
 20
  4.4500
 30
0.0
 0
VERTEX
 8
PARTS
 10
  2.6000
 20
  4.4900
 30
0.0
 0
SEQEND
 8
PARTS
 0
POLYLINE
 8
PARTS
 66
1
 10
0.0
 20
0.0
 30
0.0
 0
VERTEX
 8
PARTS
 10
  2.6000
 20
  4.4900
 30
0.0
 0
VERTEX
 8
PARTS
 10
  2.6000
 20
  4.4600
 30
0.0
 0
SEQEND
 8
PARTS
 0
POLYLINE
 8
PARTS
 66
1
 10
0.0
 20
0.0
 30
0.0
 0
VERTEX
 8
PARTS
 10
  2.6000
 20
  4.4600
 30
0.0
 0
VERTEX
 8
PARTS
 10
  2.5600
 20
  4.5000
 30
0.0
 0
SEQEND
 8
PARTS
 0
POLYLINE
 8
PARTS
 66
1
 70
1
 10
0.0
 20
0.0
 30
0.0
 0
VERTEX
 8
PARTS
 10
  2.6700
 20
  4.5200
 30
0.0
 0
VERTEX
 8
PARTS
 10
  2.6600
 20
  4.5700
 30
0.0
 0
VERTEX
 8
PARTS
 10
  2.6200
 20
  4.5300
 30
0.0
 0
VERTEX
 8
PARTS
 10
  2.6700
 20
  4.5200
 30
0.0
 0
SEQEND
 8
PARTS
 0
POLYLINE
 8
PARTS
 66
1
 10
0.0
 20
0.0
 30
0.0
 0
VERTEX
 8
PARTS
 10
  2.7000
 20
  4.5000
 30
0.0
 0
VERTEX
 8
PARTS
 10
  2.8000
 20
  4.5000
 30
0.0
 0
SEQEND
 8
PARTS
 0
POLYLINE
 8
WIRE
 66
1
 10
0.0
 20
0.0
 30
0.0
 0
VERTEX
 8
WIRE
 10
  2.8000
 20
  4.7000
 30
0.0
 0
VERTEX
 8
WIRE
 10
  2.8000
 20
  4.9000
 30
0.0
 0
SEQEND
 8
WIRE
 0
POLYLINE
 8
WIRE
 66
1
 10
0.0
 20
0.0
 30
0.0
 0
VERTEX
 8
WIRE
 10
  2.8000
 20
  5.9000
 30
0.0
 0
VERTEX
 8
WIRE
 10
  2.8000
 20
  6.1000
 30
0.0
 0
SEQEND
 8
WIRE
 0
POLYLINE
 8
WIRE
 66
1
 10
0.0
 20
0.0
 30
0.0
 0
VERTEX
 8
WIRE
 10
  2.8000
 20
  6.1000
 30
0.0
 0
VERTEX
 8
WIRE
 10
  4.2000
 20
  6.1000
 30
0.0
 0
SEQEND
 8
WIRE
 0
POLYLINE
 8
WIRE
 66
1
 70
1
 10
0.0
 20
0.0
 30
0.0
 40
  0.0200
 41
  0.0200
 0
VERTEX
 8
WIRE
 10
  4.1900
 20
  6.1000
 30
0.0
 42
1.0
 0
VERTEX
 8
WIRE
 10
  4.2100
 20
  6.1000
 30
0.0
 42
1.0
 0
SEQEND
 8
WIRE
 0
POLYLINE
 8
WIRE
 66
1
 10
0.0
 20
0.0
 30
0.0
 0
VERTEX
 8
WIRE
 10
  4.2000
 20
  5.5000
 30
0.0
 0
VERTEX
 8
WIRE
 10
  3.6000
 20
  5.5000
 30
0.0
 0
SEQEND
 8
WIRE
 0
POLYLINE
 8
WIRE
 66
1
 70
1
 10
0.0
 20
0.0
 30
0.0
 40
  0.0200
 41
  0.0200
 0
VERTEX
 8
WIRE
 10
  4.1900
 20
  5.5000
 30
0.0
 42
1.0
 0
VERTEX
 8
WIRE
 10
  4.2100
 20
  5.5000
 30
0.0
 42
1.0
 0
SEQEND
 8
WIRE
 0
POLYLINE
 8
WIRE
 66
1
 10
0.0
 20
0.0
 30
0.0
 0
VERTEX
 8
WIRE
 10
  4.2000
 20
  5.5000
 30
0.0
 0
VERTEX
 8
WIRE
 10
  4.2000
 20
  5.2000
 30
0.0
 0
SEQEND
 8
WIRE
 0
POLYLINE
 8
WIRE
 66
1
 70
1
 10
0.0
 20
0.0
 30
0.0
 40
  0.0200
 41
  0.0200
 0
VERTEX
 8
WIRE
 10
  4.1900
 20
  5.2000
 30
0.0
 42
1.0
 0
VERTEX
 8
WIRE
 10
  4.2100
 20
  5.2000
 30
0.0
 42
1.0
 0
SEQEND
 8
WIRE
 0
POLYLINE
 8
WIRE
 66
1
 10
0.0
 20
0.0
 30
0.0
 0
VERTEX
 8
WIRE
 10
  3.1000
 20
  4.9000
 30
0.0
 0
VERTEX
 8
WIRE
 10
  2.8000
 20
  4.9000
 30
0.0
 0
SEQEND
 8
WIRE
 0
POLYLINE
 8
WIRE
 66
1
 70
1
 10
0.0
 20
0.0
 30
0.0
 40
  0.0200
 41
  0.0200
 0
VERTEX
 8
WIRE
 10
  2.7900
 20
  4.9000
 30
0.0
 42
1.0
 0
VERTEX
 8
WIRE
 10
  2.8100
 20
  4.9000
 30
0.0
 42
1.0
 0
SEQEND
 8
WIRE
 0
POLYLINE
 8
WIRE
 66
1
 10
0.0
 20
0.0
 30
0.0
 0
VERTEX
 8
WIRE
 10
  2.8000
 20
  4.9000
 30
0.0
 0
VERTEX
 8
WIRE
 10
  2.8000
 20
  5.4000
 30
0.0
 0
SEQEND
 8
WIRE
 0
POLYLINE
 8
WIRE
 66
1
 10
0.0
 20
0.0
 30
0.0
 0
VERTEX
 8
WIRE
 10
  5.7000
 20
  5.5000
 30
0.0
 0
VERTEX
 8
WIRE
 10
  5.7000
 20
  4.1000
 30
0.0
 0
SEQEND
 8
WIRE
 0
POLYLINE
 8
WIRE
 66
1
 10
0.0
 20
0.0
 30
0.0
 0
VERTEX
 8
WIRE
 10
  5.7000
 20
  4.1000
 30
0.0
 0
VERTEX
 8
WIRE
 10
  5.1000
 20
  4.1000
 30
0.0
 0
SEQEND
 8
WIRE
 0
POLYLINE
 8
WIRE
 66
1
 70
1
 10
0.0
 20
0.0
 30
0.0
 40
  0.0200
 41
  0.0200
 0
VERTEX
 8
WIRE
 10
  5.0900
 20
  4.1000
 30
0.0
 42
1.0
 0
VERTEX
 8
WIRE
 10
  5.1100
 20
  4.1000
 30
0.0
 42
1.0
 0
SEQEND
 8
WIRE
 0
POLYLINE
 8
WIRE
 66
1
 10
0.0
 20
0.0
 30
0.0
 0
VERTEX
 8
WIRE
 10
  2.8000
 20
  4.1000
 30
0.0
 0
VERTEX
 8
WIRE
 10
  2.8000
 20
  4.3000
 30
0.0
 0
SEQEND
 8
WIRE
 0
POLYLINE
 8
WIRE
 66
1
 10
0.0
 20
0.0
 30
0.0
 0
VERTEX
 8
WIRE
 10
  4.2000
 20
  4.7000
 30
0.0
 0
VERTEX
 8
WIRE
 10
  4.2000
 20
  4.1000
 30
0.0
 0
SEQEND
 8
WIRE
 0
POLYLINE
 8
WIRE
 66
1
 10
0.0
 20
0.0
 30
0.0
 0
VERTEX
 8
WIRE
 10
  4.2000
 20
  4.1000
 30
0.0
 0
VERTEX
 8
WIRE
 10
  2.8000
 20
  4.1000
 30
0.0
 0
SEQEND
 8
WIRE
 0
POLYLINE
 8
WIRE
 66
1
 10
0.0
 20
0.0
 30
0.0
 0
VERTEX
 8
WIRE
 10
  4.2000
 20
  6.1000
 30
0.0
 0
VERTEX
 8
WIRE
 10
  5.1000
 20
  6.1000
 30
0.0
 0
SEQEND
 8
WIRE
 0
POLYLINE
 8
WIRE
 66
1
 70
1
 10
0.0
 20
0.0
 30
0.0
 40
  0.0200
 41
  0.0200
 0
VERTEX
 8
WIRE
 10
  5.0900
 20
  6.1000
 30
0.0
 42
1.0
 0
VERTEX
 8
WIRE
 10
  5.1100
 20
  6.1000
 30
0.0
 42
1.0
 0
SEQEND
 8
WIRE
 0
POLYLINE
 8
WIRE
 66
1
 10
0.0
 20
0.0
 30
0.0
 0
VERTEX
 8
WIRE
 10
  5.7000
 20
  6.1000
 30
0.0
 0
VERTEX
 8
WIRE
 10
  5.7000
 20
  5.8000
 30
0.0
 0
SEQEND
 8
WIRE
 0
POLYLINE
 8
WIRE
 66
1
 10
0.0
 20
0.0
 30
0.0
 0
VERTEX
 8
WIRE
 10
  3.4000
 20
  4.9000
 30
0.0
 0
VERTEX
 8
WIRE
 10
  3.6000
 20
  4.9000
 30
0.0
 0
SEQEND
 8
WIRE
 0
POLYLINE
 8
WIRE
 66
1
 70
1
 10
0.0
 20
0.0
 30
0.0
 40
  0.0200
 41
  0.0200
 0
VERTEX
 8
WIRE
 10
  3.5900
 20
  4.9000
 30
0.0
 42
1.0
 0
VERTEX
 8
WIRE
 10
  3.6100
 20
  4.9000
 30
0.0
 42
1.0
 0
SEQEND
 8
WIRE
 0
POLYLINE
 8
WIRE
 66
1
 10
0.0
 20
0.0
 30
0.0
 0
VERTEX
 8
WIRE
 10
  3.6000
 20
  4.9000
 30
0.0
 0
VERTEX
 8
WIRE
 10
  3.6000
 20
  5.0000
 30
0.0
 0
SEQEND
 8
WIRE
 0
POLYLINE
 8
WIRE
 66
1
 10
0.0
 20
0.0
 30
0.0
 0
VERTEX
 8
WIRE
 10
  3.6000
 20
  4.9000
 30
0.0
 0
VERTEX
 8
WIRE
 10
  3.9000
 20
  4.9000
 30
0.0
 0
SEQEND
 8
WIRE
 0
POLYLINE
 8
WIRE
 66
1
 10
0.0
 20
0.0
 30
0.0
 0
VERTEX
 8
WIRE
 10
  4.2000
 20
  5.2000
 30
0.0
 0
VERTEX
 8
WIRE
 10
  4.2000
 20
  5.1000
 30
0.0
 0
SEQEND
 8
WIRE
 0
POLYLINE
 8
WIRE
 66
1
 10
0.0
 20
0.0
 30
0.0
 0
VERTEX
 8
WIRE
 10
  6.0000
 20
  4.1000
 30
0.0
 0
VERTEX
 8
WIRE
 10
  5.7000
 20
  4.1000
 30
0.0
 0
SEQEND
 8
WIRE
 0
POLYLINE
 8
WIRE
 66
1
 70
1
 10
0.0
 20
0.0
 30
0.0
 40
  0.0200
 41
  0.0200
 0
VERTEX
 8
WIRE
 10
  5.6900
 20
  4.1000
 30
0.0
 42
1.0
 0
VERTEX
 8
WIRE
 10
  5.7100
 20
  4.1000
 30
0.0
 42
1.0
 0
SEQEND
 8
WIRE
 0
POLYLINE
 8
WIRE
 66
1
 10
0.0
 20
0.0
 30
0.0
 0
VERTEX
 8
WIRE
 10
  6.0000
 20
  6.1000
 30
0.0
 0
VERTEX
 8
WIRE
 10
  5.7000
 20
  6.1000
 30
0.0
 0
SEQEND
 8
WIRE
 0
POLYLINE
 8
WIRE
 66
1
 70
1
 10
0.0
 20
0.0
 30
0.0
 40
  0.0200
 41
  0.0200
 0
VERTEX
 8
WIRE
 10
  5.6900
 20
  6.1000
 30
0.0
 42
1.0
 0
VERTEX
 8
WIRE
 10
  5.7100
 20
  6.1000
 30
0.0
 42
1.0
 0
SEQEND
 8
WIRE
 0
POLYLINE
 8
WIRE
 66
1
 10
0.0
 20
0.0
 30
0.0
 0
VERTEX
 8
WIRE
 10
  4.6000
 20
  5.3000
 30
0.0
 0
VERTEX
 8
WIRE
 10
  4.6000
 20
  5.2000
 30
0.0
 0
SEQEND
 8
WIRE
 0
POLYLINE
 8
WIRE
 66
1
 70
1
 10
0.0
 20
0.0
 30
0.0
 40
  0.0200
 41
  0.0200
 0
VERTEX
 8
WIRE
 10
  4.5900
 20
  5.2000
 30
0.0
 42
1.0
 0
VERTEX
 8
WIRE
 10
  4.6100
 20
  5.2000
 30
0.0
 42
1.0
 0
SEQEND
 8
WIRE
 0
POLYLINE
 8
WIRE
 66
1
 10
0.0
 20
0.0
 30
0.0
 0
VERTEX
 8
WIRE
 10
  4.6000
 20
  5.2000
 30
0.0
 0
VERTEX
 8
WIRE
 10
  4.2000
 20
  5.2000
 30
0.0
 0
SEQEND
 8
WIRE
 0
POLYLINE
 8
WIRE
 66
1
 10
0.0
 20
0.0
 30
0.0
 0
VERTEX
 8
WIRE
 10
  4.7000
 20
  5.3000
 30
0.0
 0
VERTEX
 8
WIRE
 10
  4.6000
 20
  5.3000
 30
0.0
 0
SEQEND
 8
WIRE
 0
POLYLINE
 8
WIRE
 66
1
 10
0.0
 20
0.0
 30
0.0
 0
VERTEX
 8
WIRE
 10
  4.7000
 20
  5.1000
 30
0.0
 0
VERTEX
 8
WIRE
 10
  4.6000
 20
  5.1000
 30
0.0
 0
SEQEND
 8
WIRE
 0
POLYLINE
 8
WIRE
 66
1
 10
0.0
 20
0.0
 30
0.0
 0
VERTEX
 8
WIRE
 10
  4.6000
 20
  5.1000
 30
0.0
 0
VERTEX
 8
WIRE
 10
  4.6000
 20
  5.2000
 30
0.0
 0
SEQEND
 8
WIRE
 0
POLYLINE
 8
WIRE
 66
1
 10
0.0
 20
0.0
 30
0.0
 0
VERTEX
 8
WIRE
 10
  5.5000
 20
  5.2000
 30
0.0
 0
VERTEX
 8
WIRE
 10
  6.0000
 20
  5.2000
 30
0.0
 0
SEQEND
 8
WIRE
 0
POLYLINE
 8
WIRE
 66
1
 10
0.0
 20
0.0
 30
0.0
 0
VERTEX
 8
WIRE
 10
  4.2000
 20
  5.6000
 30
0.0
 0
VERTEX
 8
WIRE
 10
  4.2000
 20
  5.5000
 30
0.0
 0
SEQEND
 8
WIRE
 0
POLYLINE
 8
WIRE
 66
1
 10
0.0
 20
0.0
 30
0.0
 0
VERTEX
 8
WIRE
 10
  5.7000
 20
  4.1000
 30
0.0
 0
VERTEX
 8
WIRE
 10
  5.7000
 20
  3.9000
 30
0.0
 0
SEQEND
 8
WIRE
 0
POLYLINE
 8
WIRE
 66
1
 10
0.0
 20
0.0
 30
0.0
 0
VERTEX
 8
WIRE
 10
  5.1000
 20
  5.8000
 30
0.0
 0
VERTEX
 8
WIRE
 10
  5.1000
 20
  6.1000
 30
0.0
 0
SEQEND
 8
WIRE
 0
POLYLINE
 8
WIRE
 66
1
 10
0.0
 20
0.0
 30
0.0
 0
VERTEX
 8
WIRE
 10
  5.1000
 20
  6.1000
 30
0.0
 0
VERTEX
 8
WIRE
 10
  5.7000
 20
  6.1000
 30
0.0
 0
SEQEND
 8
WIRE
 0
POLYLINE
 8
WIRE
 66
1
 10
0.0
 20
0.0
 30
0.0
 0
VERTEX
 8
WIRE
 10
  5.1000
 20
  4.6000
 30
0.0
 0
VERTEX
 8
WIRE
 10
  5.1000
 20
  4.1000
 30
0.0
 0
SEQEND
 8
WIRE
 0
POLYLINE
 8
WIRE
 66
1
 10
0.0
 20
0.0
 30
0.0
 0
VERTEX
 8
WIRE
 10
  5.1000
 20
  4.1000
 30
0.0
 0
VERTEX
 8
WIRE
 10
  4.2000
 20
  4.1000
 30
0.0
 0
SEQEND
 8
WIRE
 0
POLYLINE
 8
WIRE
 66
1
 70
1
 10
0.0
 20
0.0
 30
0.0
 40
  0.0200
 41
  0.0200
 0
VERTEX
 8
WIRE
 10
  4.1900
 20
  4.1000
 30
0.0
 42
1.0
 0
VERTEX
 8
WIRE
 10
  4.2100
 20
  4.1000
 30
0.0
 42
1.0
 0
SEQEND
 8
WIRE
 0
POLYLINE
 8
PARTS
 66
1
 10
0.0
 20
0.0
 30
0.0
 0
VERTEX
 8
PARTS
 10
  5.6000
 20
  3.9000
 30
0.0
 0
VERTEX
 8
PARTS
 10
  5.8000
 20
  3.9000
 30
0.0
 0
SEQEND
 8
PARTS
 0
POLYLINE
 8
PARTS
 66
1
 10
0.0
 20
0.0
 30
0.0
 0
VERTEX
 8
PARTS
 10
  5.6300
 20
  3.8700
 30
0.0
 0
VERTEX
 8
PARTS
 10
  5.7700
 20
  3.8700
 30
0.0
 0
SEQEND
 8
PARTS
 0
POLYLINE
 8
PARTS
 66
1
 10
0.0
 20
0.0
 30
0.0
 0
VERTEX
 8
PARTS
 10
  5.7400
 20
  3.8400
 30
0.0
 0
VERTEX
 8
PARTS
 10
  5.6600
 20
  3.8400
 30
0.0
 0
SEQEND
 8
PARTS
 0
POLYLINE
 8
PARTS
 66
1
 10
0.0
 20
0.0
 30
0.0
 0
VERTEX
 8
PARTS
 10
  5.6900
 20
  3.8100
 30
0.0
 0
VERTEX
 8
PARTS
 10
  5.7100
 20
  3.8100
 30
0.0
 0
SEQEND
 8
PARTS
 0
TEXT
 8
PARTTEXT
 10
  6.3200
 20
  6.0986
 30
0.0
 40
  0.0514
 1
+5V (Pin 7)
 0
POLYLINE
 8
PARTS
 66
1
 10
0.0
 20
0.0
 30
0.0
 0
VERTEX
 8
PARTS
 10
  6.0000
 20
  6.1500
 30
0.0
 0
VERTEX
 8
PARTS
 10
  6.2000
 20
  6.1500
 30
0.0
 0
SEQEND
 8
PARTS
 0
POLYLINE
 8
PARTS
 66
1
 10
0.0
 20
0.0
 30
0.0
 0
VERTEX
 8
PARTS
 10
  6.2000
 20
  6.1500
 30
0.0
 0
VERTEX
 8
PARTS
 10
  6.3000
 20
  6.1000
 30
0.0
 0
SEQEND
 8
PARTS
 0
POLYLINE
 8
PARTS
 66
1
 10
0.0
 20
0.0
 30
0.0
 0
VERTEX
 8
PARTS
 10
  6.3000
 20
  6.1000
 30
0.0
 0
VERTEX
 8
PARTS
 10
  6.2000
 20
  6.0500
 30
0.0
 0
SEQEND
 8
PARTS
 0
POLYLINE
 8
PARTS
 66
1
 10
0.0
 20
0.0
 30
0.0
 0
VERTEX
 8
PARTS
 10
  6.2000
 20
  6.0500
 30
0.0
 0
VERTEX
 8
PARTS
 10
  6.0000
 20
  6.0500
 30
0.0
 0
SEQEND
 8
PARTS
 0
POLYLINE
 8
PARTS
 66
1
 10
0.0
 20
0.0
 30
0.0
 0
VERTEX
 8
PARTS
 10
  6.0000
 20
  6.0500
 30
0.0
 0
VERTEX
 8
PARTS
 10
  6.0000
 20
  6.1500
 30
0.0
 0
SEQEND
 8
PARTS
 0
TEXT
 8
PARTTEXT
 10
  6.3200
 20
  5.1986
 30
0.0
 40
  0.0514
 1
SW7 (Pin 4)
 0
POLYLINE
 8
PARTS
 66
1
 10
0.0
 20
0.0
 30
0.0
 0
VERTEX
 8
PARTS
 10
  6.0000
 20
  5.2500
 30
0.0
 0
VERTEX
 8
PARTS
 10
  6.2000
 20
  5.2500
 30
0.0
 0
SEQEND
 8
PARTS
 0
POLYLINE
 8
PARTS
 66
1
 10
0.0
 20
0.0
 30
0.0
 0
VERTEX
 8
PARTS
 10
  6.2000
 20
  5.2500
 30
0.0
 0
VERTEX
 8
PARTS
 10
  6.3000
 20
  5.2000
 30
0.0
 0
SEQEND
 8
PARTS
 0
POLYLINE
 8
PARTS
 66
1
 10
0.0
 20
0.0
 30
0.0
 0
VERTEX
 8
PARTS
 10
  6.3000
 20
  5.2000
 30
0.0
 0
VERTEX
 8
PARTS
 10
  6.2000
 20
  5.1500
 30
0.0
 0
SEQEND
 8
PARTS
 0
POLYLINE
 8
PARTS
 66
1
 10
0.0
 20
0.0
 30
0.0
 0
VERTEX
 8
PARTS
 10
  6.2000
 20
  5.1500
 30
0.0
 0
VERTEX
 8
PARTS
 10
  6.0000
 20
  5.1500
 30
0.0
 0
SEQEND
 8
PARTS
 0
POLYLINE
 8
PARTS
 66
1
 10
0.0
 20
0.0
 30
0.0
 0
VERTEX
 8
PARTS
 10
  6.0000
 20
  5.1500
 30
0.0
 0
VERTEX
 8
PARTS
 10
  6.0000
 20
  5.2500
 30
0.0
 0
SEQEND
 8
PARTS
 0
TEXT
 8
PARTTEXT
 10
  6.3200
 20
  4.0986
 30
0.0
 40
  0.0514
 1
GND (Pin 8)
 0
POLYLINE
 8
PARTS
 66
1
 10
0.0
 20
0.0
 30
0.0
 0
VERTEX
 8
PARTS
 10
  6.0000
 20
  4.1500
 30
0.0
 0
VERTEX
 8
PARTS
 10
  6.2000
 20
  4.1500
 30
0.0
 0
SEQEND
 8
PARTS
 0
POLYLINE
 8
PARTS
 66
1
 10
0.0
 20
0.0
 30
0.0
 0
VERTEX
 8
PARTS
 10
  6.2000
 20
  4.1500
 30
0.0
 0
VERTEX
 8
PARTS
 10
  6.3000
 20
  4.1000
 30
0.0
 0
SEQEND
 8
PARTS
 0
POLYLINE
 8
PARTS
 66
1
 10
0.0
 20
0.0
 30
0.0
 0
VERTEX
 8
PARTS
 10
  6.3000
 20
  4.1000
 30
0.0
 0
VERTEX
 8
PARTS
 10
  6.2000
 20
  4.0500
 30
0.0
 0
SEQEND
 8
PARTS
 0
POLYLINE
 8
PARTS
 66
1
 10
0.0
 20
0.0
 30
0.0
 0
VERTEX
 8
PARTS
 10
  6.2000
 20
  4.0500
 30
0.0
 0
VERTEX
 8
PARTS
 10
  6.0000
 20
  4.0500
 30
0.0
 0
SEQEND
 8
PARTS
 0
POLYLINE
 8
PARTS
 66
1
 10
0.0
 20
0.0
 30
0.0
 0
VERTEX
 8
PARTS
 10
  6.0000
 20
  4.0500
 30
0.0
 0
VERTEX
 8
PARTS
 10
  6.0000
 20
  4.1500
 30
0.0
 0
SEQEND
 8
PARTS
 0
TEXT
 8
COMMENTS
 10
  2.2000
 20
  4.3600
 30
0.0
 40
  0.0400
 1
Phototransistor
 0
TEXT
 8
COMMENTS
 10
  5.7500
 20
  5.7472
 30
0.0
 40
  0.0628
 1
+
 0
TEXT
 8
COMMENTS
 10
  3.2000
 20
  4.5600
 30
0.0
 40
  0.0400
 1
Package # 103
 0
TEXT
 8
COMMENTS
 10
  3.7000
 20
  5.1600
 30
0.0
 40
  0.0400
 1
Brown
 0
TEXT
 8
COMMENTS
 10
  3.7000
 20
  5.1200
 30
0.0
 40
  0.0400
 1
 
 0
TEXT
 8
COMMENTS
 10
  3.7000
 20
  5.0800
 30
0.0
 40
  0.0400
 1
Black
 0
TEXT
 8
COMMENTS
 10
  3.7000
 20
  5.0400
 30
0.0
 40
  0.0400
 1
 
 0
TEXT
 8
COMMENTS
 10
  3.7000
 20
  5.0000
 30
0.0
 40
  0.0400
 1
Orange
 0
TEXT
 8
COMMENTS
 10
  3.7000
 20
  4.9600
 30
0.0
 40
  0.0400
 1
 
 0
TEXT
 8
COMMENTS
 10
  3.7000
 20
  4.9200
 30
0.0
 40
  0.0400
 1
Gold
 0
TEXT
 8
COMMENTS
 10
  4.3000
 20
  5.7600
 30
0.0
 40
  0.0400
 1
Red
 0
TEXT
 8
COMMENTS
 10
  4.3000
 20
  5.7200
 30
0.0
 40
  0.0400
 1
 
 0
TEXT
 8
COMMENTS
 10
  4.3000
 20
  5.6800
 30
0.0
 40
  0.0400
 1
Red
 0
TEXT
 8
COMMENTS
 10
  4.3000
 20
  5.6400
 30
0.0
 40
  0.0400
 1
 
 0
TEXT
 8
COMMENTS
 10
  4.3000
 20
  5.6000
 30
0.0
 40
  0.0400
 1
Red
 0
TEXT
 8
COMMENTS
 10
  4.3000
 20
  5.5600
 30
0.0
 40
  0.0400
 1
 
 0
TEXT
 8
COMMENTS
 10
  4.3000
 20
  5.5200
 30
0.0
 40
  0.0400
 1
Gold
 0
TEXT
 8
COMMENTS
 10
  5.9000
 20
  5.4600
 30
0.0
 40
  0.0400
 1
Package # 476
 0
TEXT
 8
COMMENTS
 10
  4.3000
 20
  4.7600
 30
0.0
 40
  0.0400
 1
Replacements
 0
TEXT
 8
COMMENTS
 10
  4.3000
 20
  4.7200
 30
0.0
 40
  0.0400
 1
 
 0
TEXT
 8
COMMENTS
 10
  4.3000
 20
  4.6800
 30
0.0
 40
  0.0400
 1
2N4401
 0
TEXT
 8
COMMENTS
 10
  4.3000
 20
  4.6400
 30
0.0
 40
  0.0400
 1
 
 0
TEXT
 8
COMMENTS
 10
  4.3000
 20
  4.6000
 30
0.0
 40
  0.0400
 1
2N2222
 0
TEXT
 8
COMMENTS
 10
  5.0000
 20
  5.2600
 30
0.0
 40
  0.0400
 1
Schmitt
 0
TEXT
 8
COMMENTS
 10
  5.0000
 20
  5.2200
 30
0.0
 40
  0.0400
 1
 
 0
TEXT
 8
COMMENTS
 10
  5.0000
 20
  5.1800
 30
0.0
 40
  0.0400
 1
Trigger
 0
TEXT
 8
COMMENTS
 10
  5.0000
 20
  5.1400
 30
0.0
 40
  0.0400
 1
 
 0
TEXT
 8
COMMENTS
 10
  5.0000
 20
  5.1000
 30
0.0
 40
  0.0400
 1
NAND
 0
TEXT
 8
COMMENTS
 10
  2.9000
 20
  5.5600
 30
0.0
 40
  0.0400
 1
Brown
 0
TEXT
 8
COMMENTS
 10
  2.9000
 20
  5.5200
 30
0.0
 40
  0.0400
 1
 
 0
TEXT
 8
COMMENTS
 10
  2.9000
 20
  5.4800
 30
0.0
 40
  0.0400
 1
Black
 0
TEXT
 8
COMMENTS
 10
  2.9000
 20
  5.4400
 30
0.0
 40
  0.0400
 1
 
 0
TEXT
 8
COMMENTS
 10
  2.9000
 20
  5.4000
 30
0.0
 40
  0.0400
 1
Orange
 0
TEXT
 8
COMMENTS
 10
  2.9000
 20
  5.3600
 30
0.0
 40
  0.0400
 1
 
 0
TEXT
 8
COMMENTS
 10
  2.9000
 20
  5.3200
 30
0.0
 40
  0.0400
 1
Gold
 0
POLYLINE
 8
COMMENTS
 66
1
 70
1
 10
0.0
 20
0.0
 30
0.0
 0
VERTEX
 8
COMMENTS
 10
  2.4000
 20
  3.7000
 30
0.0
 0
VERTEX
 8
COMMENTS
 10
  6.7000
 20
  3.7000
 30
0.0
 0
VERTEX
 8
COMMENTS
 10
  6.7000
 20
  1.7000
 30
0.0
 0
VERTEX
 8
COMMENTS
 10
  2.4000
 20
  1.7000
 30
0.0
 0
SEQEND
 8
COMMENTS
 0
TEXT
 8
COMMENTS
 10
  2.5000
 20
  3.5372
 30
0.0
 40
  0.0628
 1
Notes:
 0
TEXT
 8
COMMENTS
 10
  2.5000
 20
  3.4622
 30
0.0
 40
  0.0628
 1
 
 0
TEXT
 8
COMMENTS
 10
  2.5000
 20
  3.3872
 30
0.0
 40
  0.0628
 1
-----------------------------------------------------------
 0
TEXT
 8
COMMENTS
 10
  2.5000
 20
  3.3122
 30
0.0
 40
  0.0628
 1
 
 0
TEXT
 8
COMMENTS
 10
  2.5000
 20
  3.2372
 30
0.0
 40
  0.0628
 1
1) This is not the "official" Vectrex lightpen.
 0
TEXT
 8
COMMENTS
 10
  2.5000
 20
  3.1622
 30
0.0
 40
  0.0628
 1
 
 0
TEXT
 8
COMMENTS
 10
  2.5000
 20
  3.0872
 30
0.0
 40
  0.0628
 1
2) Pin connections to vectrex left joystick port (#2) shown 
 0
TEXT
 8
COMMENTS
 10
  2.5000
 20
  3.0122
 30
0.0
 40
  0.0628
 1
 
 0
TEXT
 8
COMMENTS
 10
  2.5000
 20
  2.9372
 30
0.0
 40
  0.0628
 1
in brackets.
 0
TEXT
 8
COMMENTS
 10
  2.5000
 20
  2.8622
 30
0.0
 40
  0.0628
 1
 
 0
TEXT
 8
COMMENTS
 10
  2.5000
 20
  2.7872
 30
0.0
 40
  0.0628
 1
3) L14G3 available from Digikey (1800DIGIKEY).
 0
TEXT
 8
COMMENTS
 10
  2.5000
 20
  2.7122
 30
0.0
 40
  0.0628
 1
 
 0
TEXT
 8
COMMENTS
 10
  2.5000
 20
  2.6372
 30
0.0
 40
  0.0628
 1
4) Use a Seqa extension cable (with plug cut off), or Sega
 0
TEXT
 8
COMMENTS
 10
  2.5000
 20
  2.5622
 30
0.0
 40
  0.0628
 1
 
 0
TEXT
 8
COMMENTS
 10
  2.5000
 20
  2.4872
 30
0.0
 40
  0.0628
 1
controller cable with nice strain relief to make a 
 0
TEXT
 8
COMMENTS
 10
  2.5000
 20
  2.4122
 30
0.0
 40
  0.0628
 1
 
 0
TEXT
 8
COMMENTS
 10
  2.5000
 20
  2.3372
 30
0.0
 40
  0.0628
 1
connection to the Vectrex.
 0
TEXT
 8
COMMENTS
 10
  2.5000
 20
  2.2622
 30
0.0
 40
  0.0628
 1
 
 0
TEXT
 8
COMMENTS
 10
  2.5000
 20
  2.1872
 30
0.0
 40
  0.0628
 1
5) Design and Schematic revision by Brett Walach
 0
TEXT
 8
COMMENTS
 10
  2.5000
 20
  2.1122
 30
0.0
 40
  0.0628
 1
<playvectrex@gmail.com> & Rob Mitchell.
 0
TEXT
 8
COMMENTS
 10
  2.5000
 20
  2.0372
 30
0.0
 40
  0.0628
 1
 
 0
TEXT
 8
COMMENTS
 10
  2.5000
 20
  1.9622
 30
0.0
 40
  0.0628
 1
5) Original ASCII Design and Schematic done by 
 0
TEXT
 8
COMMENTS
 10
  2.5000
 20
  1.8872
 30
0.0
 40
  0.0628
 1
 
 0
TEXT
 8
COMMENTS
 10
  2.5000
 20
  1.8122
 30
0.0
 40
  0.0628
 1
Tony Duell <ard@p850ug1.demon.co.uk> April 1995.
 0
TEXT
 8
COMMENTS
 10
  2.6000
 20
  6.7182
 30
0.0
 40
  0.1818
 1
Modified Vectrex Lightpen
 0
TEXT
 8
COMMENTS
 10
  2.6000
 20
  6.4848
 30
0.0
 40
  0.1818
 1
 
 0
TEXT
 8
COMMENTS
 10
  2.6000
 20
  6.2515
 30
0.0
 40
  0.1818
 1
(MVLP) v1.0
 0
ENDSEC
 0
EOF
